Menu Led Zeppelin
What о группе.
Yardbirds Led Zeppelin.
Group Offstage
Sorted By Person
Sorted By Tour

 

Написать администратору сайта
 

Биография Роберта ПлантаБиография Джимми Пейджа

 

 

Led Zeppelin - Moby Dick, аккорды
 

26.6.2003

Dropped D-tuning : e H G D A D
---------------------------

1:
e-------------------------------
H-------------------------------
G-------------------------------
D-------------------------------
A-----5--5--3-------------------
D--0-----------5--3--5--3--5--3-

2:
e-------------------------------
H-------------------------------
G-------------------------------
D----5--5--3--0-----------------
A----------------1--3--1--3--1--
D--5----------------------------

3:
e--------------------------------------------------------------
H--------------------------------------------------------------
G--------------------------------------------5b7----5--2-------
D----7--7-5-----7--7---5--7-0-5-5-5-5-5--3---------------5--3--
A------------7-------7---------------------5-------------------
D--7-----------------------------------------------------------

end:

e--------------
H--7---5---2---
G--7---5---2---
D--7---5---2---
A--------------
D--------------

Solo by Jimmy Pena - jimmy@walrus.com
------------------

[Solo 1]:

  e:--------10-10---------------------------------------------|
  B:--------10-----------------------------------12--10------|
  G:-12b14---------12b14p12-----12-10------------12--10------|
  D:-------------------------12--------12-10-12---------------|
  A:----------------------------------------------------------|
  E:----------------------------------------------------------|

[Solo 2]:

  e:----------------------------------------------------------13b15----|
  B:--------13b15~13b15~13b15~13b15~13b15~13b15~13b15------------------|
  G:-------------------------------------------------------------------|
  D:-------------------------------------------------------------------|
  A:-------------------------------------------------------------------|
  E:-------------------------------------------------------------------|
                   hold bend and strike

     **             **
  e:-10----13b15----10-------------------------------------------------|
  B:--10-------------10------------------------------------------------|
  G:---12-------------12-----------------------------------------------|
  D:-------------------------------------------------------------------|
  A:-------------------------------------------------------------------|
  E:-------------------------------------------------------------------|
  (** rake these very quickly)


[Solo 3]:
  e:-3p1p0--------------------3p1p0------------------------------------|
  B:-------3p1p0--------------------3p1p0------------------------------|
  G:-------------4p2p0--------------------4p2p0------------------------|
  D:-------------------3p2p0--------------------3p2p0------------------|
  A:--------------------------------------------------3p2p0------------|
  E:-------------------------------------------------------------------|
                                                  faster
[Solo 4]:

  e:-----------------------------------10------------------------------|
  B:----------------------------10-12-----13b15--13b15~~~-------------|
  G:-----------------7-7-7-9s11----------------------------------------|
  D:-----------7-9-----------------------------------------------------|
  A:-5-5-5-7s9---------------------------------------------------------|
  E:-------------------------------------------------------------------|

 

Menu Led Zeppelin
Тексты песен Led Zeppelin.
Перевод песен Led Zeppelin.
Табулатуры Led Zeppelin. Tabs.
Альбомы студии.
Jimmy Page.
Robert Plant.
John Pol Jones.
Page - Plant.
Каталог Статей.
 
Аудио Led Zeppelin
Миди файлы Led Zeppelin.
Видео Led Zeppelin.
Аудио Led Zeppelin.
 
 



Тексты песенТексты песенТексты песен
 

Лучшие хиты LZ
Carol
Kashmir
No Quarter




Биография Джона БонамаБиография Джона Джонса
Russian Fan Site Led Zeppelin 2008 © 2018