Menu Led Zeppelin
What о группе.
Yardbirds Led Zeppelin.
Group Offstage
Sorted By Person
Sorted By Tour

 

Написать администратору сайта
 

Биография Роберта ПлантаБиография Джимми Пейджа

 

 

http://ians.ru/zhenskie-rubashki-praktichnaya-i-stilnaya-povsednevnaya-odezhda.html


Европарламент поддержал безвизовый режим для Грузии, пишет Golosinfo.com

Led Zeppelin - Friends, аккорды
 
-----------------------------------------------------------------------------
                          Led Zeppelin - Friends
-----------------------------------------------------------------------------
Transcribed by Victor Ochoa

CACGCE (low to high) Tuning

  Intro
E|-------------000||0----------------|0-------------000|0-0-000-000-0000|
C|-------------000||0------------0000|0-------------000|0-0-000-000-0000|
G|-------------000||0------------0000|0-------------000|0-0-000-000-0000|
C|-------------000||0------------0030|0-------------000|0---00--00--0034|
A|-------------333||3------------3333|3-------------333|3---33--33--33--|
C|-------------000||0----------------|0----------------|----------------|

E|002-002-22222222|
C|000-000-00000000|
G|000-000-00000000|
C|00--00--00---030|
A|33--33--33---333|
C|-------------0--|

  Theme                                              2/4 time
E| -0302000202023--|-0302000202023--|-0302000202023--|-03020--|
C| 0030200020202300|0030200020202300|0030200020202300|00302020|
G|o0-------------00|0-------------00|0-------------00|0-----00|
C|o0-------------00|0-------------00|0-------------00|0-----00|
A| 3-------------33|3-------------33|3-------------33|3-----33|
C| 0-------------00|0-------------00|0-------------00|0-----00|

  11/8 time
E|2-------------------- |
C|000300200500400700600 |
G|000-00-00-00-00-00-00o|
C|000300200500400700600o|
A|3-------------------- |
C|---3--2--5--4--7--6-- |

  Verses
E|--000000----0---|000-000000000-00|00000000000-0000|0000000000000-00|
C|0-000000-0000000|000-000000000-00|00000000000-0000|0000000000000-00|
G|0-000000-0000000|000-000000000-00|00000000000-0000|0000000000000-00|
C|0------0-0007777|6-----------7---|9-----------4---|6-----------1---|
A|3------3-3337777|----------------|----------------|----------------| Repeat
C|0--------0000000|6-----------7---|9-----------4---|6-----------1---|  once

E|0000000-00000-0-|00000000000-0-00|0-000-0000000-0-|000000--00000000|
C|0000000-00000-0-|00000000000-0-00|0-000-0000000-0-|0000000000000000|
G|0000000-00000-0-|00000000000-0-00|0-000-0000000-0-|0000000000000000|
C|0-----------7-7-|6-----------7---|9---11------4-4-|6-----6------000|
A|3-----------7-7-|----------------|----------------|-------------333|
C|0---------------|6-----------7---|9---11------4-4-|6-----6------000|

  CODA
E|--00--00--00--00|--00--00--00--00|0000000000000000|0000000000000000|
C|0-00000000000000|0000000000000000|0000000000000000|0000000000000000|
G|0-00000000000000|0000000000000000|0000000000000000|0000000000000000|
C|0-00000000000000|0000000000000000|0000000000000000|0000000000000000|
A|3-33333333333333|3333333333336666|5555555555558888|7777777777771010|
C|0-00000000000000|0000000000000000|0000000000000000|0000000000000-0-|

E|0-00000000000000|0-00000000000000|0-00000000000000|0-00000000000000|
C|0-00000000000000|0-00000000000000|0-00000000000000|0-00000000000000|
G|0-00000000000000|0-00000000000000|0-00000000000000|0-00000000000000|
C|0-00000000000000|0-00000000000000|0-00000000000000|0-00000000000000|
A|9-99999999991010|1212121212126666|5-55555555558888|7-77777777771010|
C|0-00000000000-0-|0-00000000000000|0-00000000000000|0-00000000000-0-|

E|0-0-000000000-0-|0000000000000000|0000000000000000|0-0-000002020200|
C|0-0-000000000-0-|0000000000000000|0000000000000000|0-0-000000000000|
G|0-0-000000000-0-|0000000000000000|0000000000000000|0-0-000000000000|
C|0-0-000000000-0-|0000000000000000|0000000000000000|0-0-000000000000|
A|9-9-999999991010|1212121212125555|6666666666665555|3-3-333333333333|
C|0-0-000000000-0-|0000000000000000|0000000000000000|0-0-000000000000|
                                            Im tellin' you now......

E|000002020203-000|33333-333333333-|0000000000000000|3333333333333333|
C|000000000000-000|00000-000000000-|0000000000000000|0000000000000000|
G|000000000000-000|00000-000000000-|0000000000000000|0000000000000000|
C|000000000000-000|00000-000000000-|0000000000000000|0000000000000000|
A|333333333333-333|33333-333333333-|3333333333333333|3333333333333333|
C|000000000000-000|00000-000000000-|0000000000000000|0000000000000000|

E|0000000000000000|0000000000000-0-|0000000000000-0-|(0)-------------|
C|0000000000000000|0000000000000-0-|0000000000000-0-|(0)-------------|
G|0000000000000000|5555555555555-5-|5555555555555-0-|(0)-------------|
C|0000000000000000|0000000000000-0-|0000000000000-0-|(0)-------------|
A|3333333333333333|3333333333333-3-|3333333333333-3-|(3)-------------|
C|0000000000000000|0000000000000-0-|0000000000000-0-|(0)-------------|

Menu Led Zeppelin
Тексты песен Led Zeppelin.
Перевод песен Led Zeppelin.
Табулатуры Led Zeppelin. Tabs.
Альбомы студии.
Jimmy Page.
Robert Plant.
John Pol Jones.
Page - Plant.
Каталог Статей.
 
Аудио Led Zeppelin
Миди файлы Led Zeppelin.
Видео Led Zeppelin.
Аудио Led Zeppelin.
 
 



Тексты песенТексты песенТексты песен
 

Лучшие хиты LZ
Crazy Mama
Pretty Beat Up
Blood Red Wine




Биография Джона БонамаБиография Джона Джонса
Russian Fan Site Led Zeppelin 2008 © 2018